  0
SECTION
  2
HEADER
  9
$ACADVER
  1
AC1009
  9
$EXTMAX
 10
36.3021850585938
 20
36.3021850585938
 30
0.0
  9
$EXTMIN
 10
0.3042065501213
 20
0.3042065501213
 30
0.0
  9
$INSUNITS
 70
     4
  9
$LUNITS
 70
     2
  9
$LUPREC
 70
     4
  9
$MEASUREMENT
 70
     1
  0
ENDSEC
  0
SECTION
  2
TABLES
  0
TABLE
  2
LAYER
 70
     1
  0
LAYER
  2
0
 70
     0
 62
     7
  6
Continuous
  0
LAYER
  2
Par_defaut
 70
     0
 62
    70
  6
Continuous
  0
ENDTAB
  0
TABLE
  2
APPID
 70
     1
  0
APPID
  2
ACAD
 70
     0
  0
ENDTAB
  0
ENDSEC
  0
SECTION
  2
ENTITIES
  0
CIRCLE
  8
Par_defaut
 10
18.3031959331548
 20
18.3031959331548
 30
0.0
 40
2.5
  0
CIRCLE
  8
Par_defaut
 10
33.8029950722217
 20
18.224286817196
 30
0.0
 40
1.0
  0
CIRCLE
  8
Par_defaut
 10
18.3821050491137
 20
33.8029950722217
 30
0.0
 40
1.0
  0
CIRCLE
  8
Par_defaut
 10
18.224286817196
 20
2.8033967940879
 30
0.0
 40
1.0
  0
CIRCLE
  8
Par_defaut
 10
2.8033967940879
 20
18.3821050491137
 30
0.0
 40
1.0
  0
CIRCLE
  8
Par_defaut
 10
7.3430408247633
 20
29.2633510415463
 30
0.0
 40
1.0
  0
CIRCLE
  8
Par_defaut
 10
29.2633510415463
 20
29.2633510415463
 30
0.0
 40
1.0
  0
CIRCLE
  8
Par_defaut
 10
29.2633510415463
 20
7.3430408247633
 30
0.0
 40
1.0
  0
CIRCLE
  8
Par_defaut
 10
7.3430408247633
 20
7.3430408247633
 30
0.0
 40
1.0
  0
POLYLINE
  8
Par_defaut
 66
     1
 10
0.0
 20
0.0
 30
0.0
 70
     1
  0
VERTEX
  8
Par_defaut
 10
21.227415503532
 20
11.1363356756583
 42
0.0
  0
VERTEX
  8
Par_defaut
 10
21.1440779486028
 20
3.2722482127246
 42
-1.0
  0
VERTEX
  8
Par_defaut
 10
15.1444148241721
 20
3.3358280314316
 42
0.0
  0
VERTEX
  8
Par_defaut
 10
15.225451672371
 20
10.9828109852517
 42
0.0
  0
VERTEX
  8
Par_defaut
 10
9.8179145589162
 20
5.5752738717969
 42
-1.0
  0
VERTEX
  8
Par_defaut
 10
5.5752738717969
 20
9.8179145589162
 42
0.0
  0
VERTEX
  8
Par_defaut
 10
11.1363356756583
 20
15.3789763627776
 42
0.0
  0
VERTEX
  8
Par_defaut
 10
3.2722482127246
 20
15.4623139177068
 42
-1.0
  0
VERTEX
  8
Par_defaut
 10
3.3358280314316
 20
21.4619770421375
 42
0.0
  0
VERTEX
  8
Par_defaut
 10
10.9828109852517
 20
21.3809401939386
 42
0.0
  0
VERTEX
  8
Par_defaut
 10
5.5752738717969
 20
26.7884773073934
 42
-1.0
  0
VERTEX
  8
Par_defaut
 10
9.8179145589162
 20
31.0311179945127
 42
0.0
  0
VERTEX
  8
Par_defaut
 10
15.3789763627776
 20
25.4700561906513
 42
0.0
  0
VERTEX
  8
Par_defaut
 10
15.4623139177068
 20
33.334143653585
 42
-1.0
  0
VERTEX
  8
Par_defaut
 10
21.4619770421375
 20
33.2705638348781
 42
0.0
  0
VERTEX
  8
Par_defaut
 10
21.3809401939386
 20
25.6235808810579
 42
0.0
  0
VERTEX
  8
Par_defaut
 10
26.7884773073934
 20
31.0311179945127
 42
-1.0
  0
VERTEX
  8
Par_defaut
 10
31.0311179945127
 20
26.7884773073934
 42
0.0
  0
VERTEX
  8
Par_defaut
 10
25.4700561906513
 20
21.227415503532
 42
0.0
  0
VERTEX
  8
Par_defaut
 10
33.334143653585
 20
21.1440779486028
 42
-1.0
  0
VERTEX
  8
Par_defaut
 10
33.2705638348781
 20
15.1444148241721
 42
0.0
  0
VERTEX
  8
Par_defaut
 10
25.6235808810579
 20
15.225451672371
 42
0.0
  0
VERTEX
  8
Par_defaut
 10
31.0311179945127
 20
9.8179145589162
 42
-1.0
  0
VERTEX
  8
Par_defaut
 10
26.7884773073934
 20
5.5752738717969
 42
0.0
  0
SEQEND
  0
ENDSEC
  0
EOF
