  0
SECTION
  2
HEADER
  9
$ACADVER
  1
AC1009
  9
$EXTMAX
 10
29618.791015625
 20
14532.037109375
 30
0.0
  9
$EXTMIN
 10
-523.0546875
 20
985.234313964844
 30
0.0
  9
$INSUNITS
 70
     1
  9
$LUNITS
 70
     2
  9
$LUPREC
 70
     4
  9
$MEASUREMENT
 70
     0
  0
ENDSEC
  0
SECTION
  2
TABLES
  0
TABLE
  2
LAYER
 70
     1
  0
LAYER
  2
0
 70
     0
 62
     7
  6
Continuous
  0
LAYER
  2
1-Axes
 70
     0
 62
     2
  6
Continuous
  0
LAYER
  2
1-CTP
 70
     0
 62
     2
  6
Continuous
  0
LAYER
  2
7-TEXTES
 70
     0
 62
     9
  6
Continuous
  0
LAYER
  2
7-COTES-INT
 70
     0
 62
    30
  6
Continuous
  0
LAYER
  2
1-DEPRON
 70
     0
 62
     8
  6
Continuous
  0
LAYER
  2
1-Traits_de_repres
 70
     0
 62
     9
  6
Continuous
  0
ENDTAB
  0
TABLE
  2
APPID
 70
     1
  0
APPID
  2
ACAD
 70
     0
  0
ENDTAB
  0
ENDSEC
  0
SECTION
  2
ENTITIES
  0
LINE
  8
1-Axes
 10
764.941496
 20
419.664149
 30
0.0
 11
764.941496
 21
314.674733
 31
0.0
  0
LINE
  8
1-Axes
 10
249.315783
 20
543.472254
 30
0.0
 11
249.315783
 21
503.324275
 31
0.0
  0
LINE
  8
1-Axes
 10
230.503283
 20
437.94263
 30
0.0
 11
230.503283
 21
427.951702
 31
0.0
  0
LINE
  8
1-Axes
 10
230.503283
 20
357.951702
 30
0.0
 11
230.503283
 21
347.939606
 31
0.0
  0
LINE
  8
1-Axes
 10
300.001533
 20
307.011981
 30
0.0
 11
300.001533
 21
235.022263
 31
0.0
  0
LINE
  8
1-Axes
 10
300.001533
 20
190.358238
 30
0.0
 11
300.001533
 21
183.358238
 31
0.0
  0
LINE
  8
1-Axes
 10
205.064334
 20
181.171816
 30
0.0
 11
205.064334
 21
113.161535
 31
0.0
  0
LINE
  8
1-Axes
 10
95.947572
 20
259.109704
 30
0.0
 11
95.947572
 21
199.109704
 31
0.0
  0
LINE
  8
1-Axes
 10
885.096421
 20
214.993189
 30
0.0
 11
885.096421
 21
112.988351
 31
0.0
  0
LINE
  8
1-Axes
 10
835.078278
 20
214.993189
 30
0.0
 11
835.078278
 21
112.988351
 31
0.0
  0
POLYLINE
  8
1-CTP
 66
     1
 10
0.0
 20
0.0
 30
0.0
 70
     1
  0
VERTEX
  8
1-CTP
 10
936.785284
 20
272.787716
 42
0.0
  0
VERTEX
  8
1-CTP
 10
943.791634
 20
279.794066
 42
0.0
  0
VERTEX
  8
1-CTP
 10
949.781957
 20
279.794066
 42
0.0
  0
VERTEX
  8
1-CTP
 10
956.788308
 20
272.787716
 42
0.0
  0
VERTEX
  8
1-CTP
 10
981.744461
 20
272.787716
 42
0.0
  0
VERTEX
  8
1-CTP
 10
981.744461
 20
282.799812
 42
0.0
  0
VERTEX
  8
1-CTP
 10
946.733878
 20
282.799812
 42
0.0
  0
VERTEX
  8
1-CTP
 10
911.744461
 20
282.799812
 42
0.0
  0
VERTEX
  8
1-CTP
 10
911.744461
 20
272.787716
 42
0.0
  0
SEQEND
  0
POLYLINE
  8
1-CTP
 66
     1
 10
0.0
 20
0.0
 30
0.0
 70
     1
  0
VERTEX
  8
1-CTP
 10
107.557772
 20
334.730232
 42
0.0
  0
VERTEX
  8
1-CTP
 10
107.557772
 20
294.724185
 42
0.0
  0
VERTEX
  8
1-CTP
 10
53.560234
 20
294.724185
 42
0.0
  0
VERTEX
  8
1-CTP
 10
53.560234
 20
334.730232
 42
0.0
  0
SEQEND
  0
POLYLINE
  8
1-CTP
 66
     1
 10
0.0
 20
0.0
 30
0.0
 70
     1
  0
VERTEX
  8
1-CTP
 10
65.909642
 20
148.638375
 42
0.0
  0
VERTEX
  8
1-CTP
 10
65.909642
 20
123.638375
 42
0.0
  0
VERTEX
  8
1-CTP
 10
125.985503
 20
123.638375
 42
0.0
  0
VERTEX
  8
1-CTP
 10
125.985503
 20
148.638375
 42
0.0
  0
SEQEND
  0
TEXT
  8
7-TEXTES
 10
936.872067
 20
275.464541
 30
0.0
 40
3.0
  1
Balsa 10x3
 72
     0
 73
     1
  0
TEXT
  8
7-TEXTES
 10
59.641295
 20
330.573718
 30
0.0
 40
3.0
  1
Vue couple A
 72
     1
 11
59.641295
 21
330.573718
 31
0.0
 73
     1
  0
TEXT
  8
7-TEXTES
 10
513.916975
 20
249.352212
 30
0.0
 40
3.0
  1
D\U+00E9velopp\U+00E9 fuselage avant
 72
     0
 73
     1
  0
TEXT
  8
7-TEXTES
 10
324.315082
 20
286.922268
 30
0.0
 40
3.0
  1
Vue coupe B
 72
     0
 73
     1
  0
TEXT
  8
7-TEXTES
 10
306.807752
 20
299.151243
 30
0.0
 40
3.0
  1
B1
 72
     0
 73
     1
  0
TEXT
  8
7-TEXTES
 10
306.807752
 20
236.940827
 30
0.0
 40
3.0
  1
B2
 72
     0
 73
     1
  0
TEXT
  8
7-TEXTES
 10
338.459266
 20
262.543666
 30
0.0
 40
3.0
  1
B3
 72
     0
 73
     1
  0
TEXT
  8
7-TEXTES
 10
266.401567
 20
262.543666
 30
0.0
 40
3.0
  1
B4
 72
     0
 73
     1
  0
TEXT
  8
7-TEXTES
 10
306.807752
 20
183.785495
 30
0.0
 40
3.0
  1
C1
 72
     0
 73
     1
  0
TEXT
  8
7-TEXTES
 10
205.555846
 20
114.549182
 30
0.0
 40
3.0
  1
Couple C
 72
     0
 73
     1
  0
TEXT
  8
7-TEXTES
 10
81.654176
 20
139.313391
 30
0.0
 40
3.0
  1
Renfort de train
 72
     1
 11
81.654176
 21
139.313391
 31
0.0
 73
     1
  0
TEXT
  8
7-TEXTES
 10
119.927172
 20
239.205848
 30
0.0
 40
3.0
  1
Vue coupe B
 72
     0
 73
     1
  0
TEXT
  8
7-TEXTES
 10
103.732789
 20
201.456199
 30
0.0
 40
3.0
  1
A2
 72
     0
 73
     1
  0
TEXT
  8
7-TEXTES
 10
132.94845
 20
221.219787
 30
0.0
 40
3.0
  1
A3
 72
     0
 73
     1
  0
TEXT
  8
7-TEXTES
 10
103.766205
 20
250.640598
 30
0.0
 40
3.0
  1
A1
 72
     0
 73
     1
  0
TEXT
  8
7-TEXTES
 10
62.6865790000001
 20
221.219787
 30
0.0
 40
3.0
  1
A4
 72
     0
 73
     1
  0
TEXT
  8
7-TEXTES
 10
103.766205
 20
201.456199
 30
0.0
 40
3.0
  1
A2
 72
     0
 73
     1
  0
TEXT
  8
7-TEXTES
 10
910.896852
 20
64.853839
 30
0.0
 40
3.0
  1
Aile du train d'atterrissage
 72
     0
 73
     1
  0
POLYLINE
  8
1-DEPRON
 66
     1
 10
0.0
 20
0.0
 30
0.0
 70
     1
  0
VERTEX
  8
1-DEPRON
 10
720.946031
 20
242.793764
 42
0.0
  0
VERTEX
  8
1-DEPRON
 10
757.946334
 20
279.794066
 42
0.0
  0
VERTEX
  8
1-DEPRON
 10
763.936657
 20
279.794066
 42
0.0
  0
VERTEX
  8
1-DEPRON
 10
800.93696
 20
242.793764
 42
0.0
  0
VERTEX
  8
1-DEPRON
 10
865.941496
 20
242.793764
 42
0.0
  0
VERTEX
  8
1-DEPRON
 10
868.785037
 20
243.148759
 42
0.0
  0
VERTEX
  8
1-DEPRON
 10
871.463092
 20
243.934423
 42
0.0
  0
VERTEX
  8
1-DEPRON
 10
873.940991
 20
245.112781
 42
0.0
  0
VERTEX
  8
1-DEPRON
 10
876.18406
 20
246.64586
 42
0.0
  0
VERTEX
  8
1-DEPRON
 10
878.157628
 20
248.495684
 42
0.0
  0
VERTEX
  8
1-DEPRON
 10
879.827023
 20
250.624281
 42
0.0
  0
VERTEX
  8
1-DEPRON
 10
881.157574
 20
252.993676
 42
0.0
  0
VERTEX
  8
1-DEPRON
 10
882.114607
 20
255.565896
 42
0.0
  0
VERTEX
  8
1-DEPRON
 10
882.663452
 20
258.302966
 42
0.0
  0
VERTEX
  8
1-DEPRON
 10
882.769436
 20
261.166912
 42
0.0
  0
VERTEX
  8
1-DEPRON
 10
882.651768
 20
262.554148
 42
0.0
  0
VERTEX
  8
1-DEPRON
 10
882.427543
 20
263.918143
 42
0.0
  0
VERTEX
  8
1-DEPRON
 10
882.09943
 20
265.253434
 42
0.0
  0
VERTEX
  8
1-DEPRON
 10
881.670096
 20
266.554562
 42
0.0
  0
VERTEX
  8
1-DEPRON
 10
881.142206
 20
267.816065
 42
0.0
  0
VERTEX
  8
1-DEPRON
 10
880.518429
 20
269.032482
 42
0.0
  0
VERTEX
  8
1-DEPRON
 10
879.801432
 20
270.198351
 42
0.0
  0
VERTEX
  8
1-DEPRON
 10
878.993881
 20
271.308212
 42
0.0
  0
VERTEX
  8
1-DEPRON
 10
878.098444
 20
272.356603
 42
0.0
  0
VERTEX
  8
1-DEPRON
 10
877.688289
 20
272.767095
 42
0.0
  0
VERTEX
  8
1-DEPRON
 10
845.938472
 20
305.800785
 42
0.0
  0
VERTEX
  8
1-DEPRON
 10
845.938472
 20
282.799812
 42
0.0
  0
VERTEX
  8
1-DEPRON
 10
845.938472
 20
282.799812
 42
0.0
  0
VERTEX
  8
1-DEPRON
 10
675.944519
 20
282.799812
 42
0.0
  0
VERTEX
  8
1-DEPRON
 10
675.944519
 20
282.799812
 42
0.0
  0
VERTEX
  8
1-DEPRON
 10
675.944519
 20
305.800823
 42
0.0
  0
VERTEX
  8
1-DEPRON
 10
644.27348
 20
272.848747
 42
0.0
  0
VERTEX
  8
1-DEPRON
 10
643.778874
 20
272.356603
 42
0.0
  0
VERTEX
  8
1-DEPRON
 10
642.878992
 20
271.308212
 42
0.0
  0
VERTEX
  8
1-DEPRON
 10
642.068266
 20
270.198351
 42
0.0
  0
VERTEX
  8
1-DEPRON
 10
641.349364
 20
269.032482
 42
0.0
  0
VERTEX
  8
1-DEPRON
 10
640.724952
 20
267.816065
 42
0.0
  0
VERTEX
  8
1-DEPRON
 10
640.197698
 20
266.554562
 42
0.0
  0
VERTEX
  8
1-DEPRON
 10
639.770268
 20
265.253434
 42
0.0
  0
VERTEX
  8
1-DEPRON
 10
639.44533
 20
263.918143
 42
0.0
  0
VERTEX
  8
1-DEPRON
 10
639.225551
 20
262.554148
 42
0.0
  0
VERTEX
  8
1-DEPRON
 10
639.113597
 20
261.166912
 42
0.0
  0
VERTEX
  8
1-DEPRON
 10
639.213866
 20
258.302966
 42
0.0
  0
VERTEX
  8
1-DEPRON
 10
639.758266
 20
255.565896
 42
0.0
  0
VERTEX
  8
1-DEPRON
 10
640.712125
 20
252.993676
 42
0.0
  0
VERTEX
  8
1-DEPRON
 10
642.04077
 20
250.624281
 42
0.0
  0
VERTEX
  8
1-DEPRON
 10
643.70953
 20
248.495684
 42
0.0
  0
VERTEX
  8
1-DEPRON
 10
645.683733
 20
246.64586
 42
0.0
  0
VERTEX
  8
1-DEPRON
 10
647.928708
 20
245.112781
 42
0.0
  0
VERTEX
  8
1-DEPRON
 10
650.409781
 20
243.934423
 42
0.0
  0
VERTEX
  8
1-DEPRON
 10
653.092282
 20
243.148759
 42
0.0
  0
VERTEX
  8
1-DEPRON
 10
655.941538
 20
242.793764
 42
0.0
  0
SEQEND
  0
POLYLINE
  8
1-DEPRON
 66
     1
 10
0.0
 20
0.0
 30
0.0
 70
     1
  0
VERTEX
  8
1-DEPRON
 10
753.944301
 20
414.668685
 42
0.0
  0
VERTEX
  8
1-DEPRON
 10
775.937867
 20
414.668685
 42
0.0
  0
VERTEX
  8
1-DEPRON
 10
849.938472
 20
337.675706
 42
0.0
  0
VERTEX
  8
1-DEPRON
 10
849.938472
 20
314.674733
 42
0.0
  0
VERTEX
  8
1-DEPRON
 10
679.944519
 20
314.674733
 42
0.0
  0
VERTEX
  8
1-DEPRON
 10
679.944519
 20
337.675745
 42
0.0
  0
SEQEND
  0
POLYLINE
  8
1-DEPRON
 66
     1
 10
0.0
 20
0.0
 30
0.0
 70
     1
  0
VERTEX
  8
1-DEPRON
 10
912.835129
 20
343.503791
 42
0.0
  0
VERTEX
  8
1-DEPRON
 10
943.869344
 20
350.820973
 42
0.0
  0
VERTEX
  8
1-DEPRON
 10
943.869344
 20
350.820973
 42
0.0
  0
VERTEX
  8
1-DEPRON
 10
949.990376
 20
353.391478
 42
0.0
  0
VERTEX
  8
1-DEPRON
 10
955.532272
 20
356.835512
 42
0.0
  0
VERTEX
  8
1-DEPRON
 10
960.423275
 20
361.05452
 42
0.0
  0
VERTEX
  8
1-DEPRON
 10
964.59163
 20
365.949948
 42
0.0
  0
VERTEX
  8
1-DEPRON
 10
967.96558
 20
371.423241
 42
0.0
  0
VERTEX
  8
1-DEPRON
 10
970.473366
 20
377.375844
 42
0.0
  0
VERTEX
  8
1-DEPRON
 10
972.043233
 20
383.709204
 42
0.0
  0
VERTEX
  8
1-DEPRON
 10
972.603424
 20
390.324765
 42
0.0
  0
VERTEX
  8
1-DEPRON
 10
972.082181
 20
397.123973
 42
0.0
  0
VERTEX
  8
1-DEPRON
 10
972.082181
 20
397.123973
 42
0.0
  0
VERTEX
  8
1-DEPRON
 10
971.664107
 20
399.388315
 42
0.0
  0
VERTEX
  8
1-DEPRON
 10
971.122713
 20
401.618874
 42
0.0
  0
VERTEX
  8
1-DEPRON
 10
970.460412
 20
403.811079
 42
0.0
  0
VERTEX
  8
1-DEPRON
 10
969.679617
 20
405.960356
 42
0.0
  0
VERTEX
  8
1-DEPRON
 10
968.78274
 20
408.062134
 42
0.0
  0
VERTEX
  8
1-DEPRON
 10
967.772196
 20
410.111841
 42
0.0
  0
VERTEX
  8
1-DEPRON
 10
966.650397
 20
412.104904
 42
0.0
  0
VERTEX
  8
1-DEPRON
 10
965.419756
 20
414.036752
 42
0.0
  0
VERTEX
  8
1-DEPRON
 10
964.082686
 20
415.902811
 42
0.0
  0
VERTEX
  8
1-DEPRON
 10
962.6416
 20
417.698511
 42
0.0
  0
VERTEX
  8
1-DEPRON
 10
958.618304
 20
422.2737
 42
0.0
  0
VERTEX
  8
1-DEPRON
 10
954.03721
 20
426.044323
 42
0.0
  0
VERTEX
  8
1-DEPRON
 10
949.006015
 20
428.994505
 42
0.0
  0
VERTEX
  8
1-DEPRON
 10
943.63242
 20
431.108369
 42
0.0
  0
VERTEX
  8
1-DEPRON
 10
938.024122
 20
432.370042
 42
0.0
  0
VERTEX
  8
1-DEPRON
 10
932.288821
 20
432.763646
 42
0.0
  0
VERTEX
  8
1-DEPRON
 10
926.534216
 20
432.273307
 42
0.0
  0
VERTEX
  8
1-DEPRON
 10
920.868005
 20
430.88315
 42
0.0
  0
VERTEX
  8
1-DEPRON
 10
915.397887
 20
428.577299
 42
0.0
  0
VERTEX
  8
1-DEPRON
 10
910.231561
 20
425.339878
 42
0.0
  0
VERTEX
  8
1-DEPRON
 10
910.231561
 20
425.339878
 42
0.0
  0
VERTEX
  8
1-DEPRON
 10
905.656965
 20
421.316582
 42
0.0
  0
VERTEX
  8
1-DEPRON
 10
901.88795
 20
416.735488
 42
0.0
  0
VERTEX
  8
1-DEPRON
 10
898.94014
 20
411.704293
 42
0.0
  0
VERTEX
  8
1-DEPRON
 10
896.829154
 20
406.330698
 42
0.0
  0
VERTEX
  8
1-DEPRON
 10
895.570614
 20
400.7224
 42
0.0
  0
VERTEX
  8
1-DEPRON
 10
895.180143
 20
394.987099
 42
0.0
  0
VERTEX
  8
1-DEPRON
 10
895.67336
 20
389.232494
 42
0.0
  0
VERTEX
  8
1-DEPRON
 10
897.065888
 20
383.566283
 42
0.0
  0
VERTEX
  8
1-DEPRON
 10
899.373348
 20
378.096165
 42
0.0
  0
VERTEX
  8
1-DEPRON
 10
902.611361
 20
372.929839
 42
0.0
  0
VERTEX
  8
1-DEPRON
 10
902.611361
 20
372.929839
 42
0.0
  0
VERTEX
  8
1-DEPRON
 10
903.469713
 20
371.823132
 42
0.0
  0
VERTEX
  8
1-DEPRON
 10
904.367563
 20
370.751478
 42
0.0
  0
VERTEX
  8
1-DEPRON
 10
905.303768
 20
369.715639
 42
0.0
  0
VERTEX
  8
1-DEPRON
 10
906.277185
 20
368.716377
 42
0.0
  0
VERTEX
  8
1-DEPRON
 10
907.286671
 20
367.754453
 42
0.0
  0
VERTEX
  8
1-DEPRON
 10
908.331083
 20
366.830631
 42
0.0
  0
VERTEX
  8
1-DEPRON
 10
909.409278
 20
365.945672
 42
0.0
  0
VERTEX
  8
1-DEPRON
 10
910.520112
 20
365.100338
 42
0.0
  0
VERTEX
  8
1-DEPRON
 10
911.662444
 20
364.295391
 42
0.0
  0
VERTEX
  8
1-DEPRON
 10
912.835129
 20
363.531593
 42
0.0
  0
VERTEX
  8
1-DEPRON
 10
912.835129
 20
365.527443
 42
0.0
  0
VERTEX
  8
1-DEPRON
 10
913.159237
 20
365.500951
 42
0.0
  0
VERTEX
  8
1-DEPRON
 10
913.466374
 20
365.424988
 42
0.0
  0
VERTEX
  8
1-DEPRON
 10
913.750315
 20
365.299564
 42
0.0
  0
VERTEX
  8
1-DEPRON
 10
914.011011
 20
365.137931
 42
0.0
  0
VERTEX
  8
1-DEPRON
 10
914.242749
 20
364.939213
 42
0.0
  0
VERTEX
  8
1-DEPRON
 10
914.441467
 20
364.707474
 42
0.0
  0
VERTEX
  8
1-DEPRON
 10
914.6031
 20
364.446779
 42
0.0
  0
VERTEX
  8
1-DEPRON
 10
914.723584
 20
364.161191
 42
0.0
  0
VERTEX
  8
1-DEPRON
 10
914.798855
 20
363.854774
 42
0.0
  0
VERTEX
  8
1-DEPRON
 10
914.824848
 20
363.531593
 42
0.0
  0
VERTEX
  8
1-DEPRON
 10
914.824848
 20
363.531593
 42
0.0
  0
VERTEX
  8
1-DEPRON
 10
914.80457
 20
363.208391
 42
0.0
  0
VERTEX
  8
1-DEPRON
 10
914.733744
 20
362.901826
 42
0.0
  0
VERTEX
  8
1-DEPRON
 10
914.616435
 20
362.615835
 42
0.0
  0
VERTEX
  8
1-DEPRON
 10
914.456708
 20
362.354357
 42
0.0
  0
VERTEX
  8
1-DEPRON
 10
914.258625
 20
362.121327
 42
0.0
  0
VERTEX
  8
1-DEPRON
 10
914.026251
 20
361.920683
 42
0.0
  0
VERTEX
  8
1-DEPRON
 10
913.76365
 20
361.756362
 42
0.0
  0
VERTEX
  8
1-DEPRON
 10
913.474887
 20
361.6323
 42
0.0
  0
VERTEX
  8
1-DEPRON
 10
913.162313
 20
361.562744
 42
0.0
  0
VERTEX
  8
1-DEPRON
 10
912.835129
 20
361.535743
 42
0.0
  0
SEQEND
  0
ARC
  8
1-DEPRON
 10
912.835129
 20
363.531593
 30
0.0
 40
1.99585
 50
-90.000003
 51
90.000003
  0
POLYLINE
  8
1-DEPRON
 66
     1
 10
0.0
 20
0.0
 30
0.0
 70
     1
  0
VERTEX
  8
1-DEPRON
 10
691.994402
 20
422.790976
 42
0.0
  0
VERTEX
  8
1-DEPRON
 10
691.994402
 20
419.785231
 42
0.0
  0
VERTEX
  8
1-DEPRON
 10
921.997426
 20
472.783085
 42
0.0
  0
VERTEX
  8
1-DEPRON
 10
921.997426
 20
492.790976
 42
0.0
  0
VERTEX
  8
1-DEPRON
 10
691.994402
 20
492.790976
 42
0.0
  0
VERTEX
  8
1-DEPRON
 10
691.994402
 20
489.785231
 42
0.0
  0
VERTEX
  8
1-DEPRON
 10
681.982307
 20
489.785231
 42
0.0
  0
VERTEX
  8
1-DEPRON
 10
681.982307
 20
492.790976
 42
0.0
  0
VERTEX
  8
1-DEPRON
 10
541.982349
 20
492.790976
 42
0.0
  0
VERTEX
  8
1-DEPRON
 10
541.982349
 20
489.785231
 42
0.0
  0
VERTEX
  8
1-DEPRON
 10
531.991421
 20
489.785231
 42
0.0
  0
VERTEX
  8
1-DEPRON
 10
531.991421
 20
454.795815
 42
0.0
  0
VERTEX
  8
1-DEPRON
 10
534.997166
 20
454.795815
 42
0.0
  0
VERTEX
  8
1-DEPRON
 10
534.997166
 20
444.783719
 42
0.0
  0
VERTEX
  8
1-DEPRON
 10
553.984163
 20
432.5914
 42
0.0
  0
VERTEX
  8
1-DEPRON
 10
553.984163
 20
440.592609
 42
0.0
  0
VERTEX
  8
1-DEPRON
 10
556.989909
 20
440.592609
 42
0.0
  0
VERTEX
  8
1-DEPRON
 10
556.989909
 20
430.580514
 42
0.0
  0
VERTEX
  8
1-DEPRON
 10
561.302973
 20
428.81974
 42
0.0
  0
VERTEX
  8
1-DEPRON
 10
565.667094
 20
427.208321
 42
0.0
  0
VERTEX
  8
1-DEPRON
 10
570.078717
 20
425.747021
 42
0.0
  0
VERTEX
  8
1-DEPRON
 10
574.534285
 20
424.436601
 42
0.0
  0
VERTEX
  8
1-DEPRON
 10
579.030241
 20
423.277822
 42
0.0
  0
VERTEX
  8
1-DEPRON
 10
583.563029
 20
422.271448
 42
0.0
  0
VERTEX
  8
1-DEPRON
 10
588.129094
 20
421.41824
 42
0.0
  0
VERTEX
  8
1-DEPRON
 10
592.724877
 20
420.718959
 42
0.0
  0
VERTEX
  8
1-DEPRON
 10
597.346825
 20
420.174369
 42
0.0
  0
VERTEX
  8
1-DEPRON
 10
601.991378
 20
419.785231
 42
0.0
  0
VERTEX
  8
1-DEPRON
 10
601.991378
 20
422.790976
 42
0.0
  0
SEQEND
  0
POLYLINE
  8
1-DEPRON
 66
     1
 10
0.0
 20
0.0
 30
0.0
 70
     1
  0
VERTEX
  8
1-DEPRON
 10
640.047831
 20
547.340635
 42
0.0
  0
VERTEX
  8
1-DEPRON
 10
640.277918
 20
549.082909
 42
0.0
  0
VERTEX
  8
1-DEPRON
 10
640.763283
 20
550.72739
 42
0.0
  0
VERTEX
  8
1-DEPRON
 10
641.482333
 20
552.253759
 42
0.0
  0
VERTEX
  8
1-DEPRON
 10
642.413479
 20
553.641693
 42
0.0
  0
VERTEX
  8
1-DEPRON
 10
643.53513
 20
554.870874
 42
0.0
  0
VERTEX
  8
1-DEPRON
 10
644.825696
 20
555.92098
 42
0.0
  0
VERTEX
  8
1-DEPRON
 10
646.263585
 20
556.77169
 42
0.0
  0
VERTEX
  8
1-DEPRON
 10
647.827208
 20
557.402685
 42
0.0
  0
VERTEX
  8
1-DEPRON
 10
649.494973
 20
557.793644
 42
0.0
  0
VERTEX
  8
1-DEPRON
 10
651.245291
 20
557.924245
 42
0.0
  0
VERTEX
  8
1-DEPRON
 10
676.54012
 20
557.924245
 42
0.0
  0
VERTEX
  8
1-DEPRON
 10
678.587646
 20
557.671043
 42
0.0
  0
VERTEX
  8
1-DEPRON
 10
680.537507
 20
557.14072
 42
0.0
  0
VERTEX
  8
1-DEPRON
 10
682.368239
 20
556.353341
 42
0.0
  0
VERTEX
  8
1-DEPRON
 10
684.058378
 20
555.328975
 42
0.0
  0
VERTEX
  8
1-DEPRON
 10
685.586461
 20
554.087687
 42
0.0
  0
VERTEX
  8
1-DEPRON
 10
686.931024
 20
552.649543
 42
0.0
  0
VERTEX
  8
1-DEPRON
 10
688.070604
 20
551.034611
 42
0.0
  0
VERTEX
  8
1-DEPRON
 10
688.983736
 20
549.262957
 42
0.0
  0
VERTEX
  8
1-DEPRON
 10
689.648959
 20
547.354648
 42
0.0
  0
VERTEX
  8
1-DEPRON
 10
690.044807
 20
545.329749
 42
0.0
  0
VERTEX
  8
1-DEPRON
 10
690.044807
 20
538.937248
 42
0.0
  0
VERTEX
  8
1-DEPRON
 10
689.648959
 20
536.912349
 42
0.0
  0
VERTEX
  8
1-DEPRON
 10
688.983736
 20
535.00404
 42
0.0
  0
VERTEX
  8
1-DEPRON
 10
688.070604
 20
533.232386
 42
0.0
  0
VERTEX
  8
1-DEPRON
 10
686.931024
 20
531.617454
 42
0.0
  0
VERTEX
  8
1-DEPRON
 10
685.586461
 20
530.17931
 42
0.0
  0
VERTEX
  8
1-DEPRON
 10
684.058378
 20
528.938022
 42
0.0
  0
VERTEX
  8
1-DEPRON
 10
682.368239
 20
527.913656
 42
0.0
  0
VERTEX
  8
1-DEPRON
 10
680.537507
 20
527.126277
 42
0.0
  0
VERTEX
  8
1-DEPRON
 10
678.587646
 20
526.595954
 42
0.0
  0
VERTEX
  8
1-DEPRON
 10
676.54012
 20
526.342752
 42
0.0
  0
VERTEX
  8
1-DEPRON
 10
651.245291
 20
526.342752
 42
0.0
  0
VERTEX
  8
1-DEPRON
 10
649.494973
 20
526.473353
 42
0.0
  0
VERTEX
  8
1-DEPRON
 10
647.827208
 20
526.864312
 42
0.0
  0
VERTEX
  8
1-DEPRON
 10
646.263585
 20
527.495307
 42
0.0
  0
VERTEX
  8
1-DEPRON
 10
644.825696
 20
528.346017
 42
0.0
  0
VERTEX
  8
1-DEPRON
 10
643.53513
 20
529.396123
 42
0.0
  0
VERTEX
  8
1-DEPRON
 10
642.413479
 20
530.625304
 42
0.0
  0
VERTEX
  8
1-DEPRON
 10
641.482333
 20
532.013238
 42
0.0
  0
VERTEX
  8
1-DEPRON
 10
640.763283
 20
533.539607
 42
0.0
  0
VERTEX
  8
1-DEPRON
 10
640.277918
 20
535.184088
 42
0.0
  0
VERTEX
  8
1-DEPRON
 10
640.047831
 20
536.926362
 42
0.0
  0
SEQEND
  0
LINE
  8
1-DEPRON
 10
710.047831
 20
526.342752
 30
0.0
 11
710.047831
 21
557.924245
 31
0.0
  0
POLYLINE
  8
1-DEPRON
 66
     1
 10
0.0
 20
0.0
 30
0.0
 70
     1
  0
VERTEX
  8
1-DEPRON
 10
710.047831
 20
557.924245
 42
0.0
  0
VERTEX
  8
1-DEPRON
 10
829.198118
 20
543.614935
 42
0.0
  0
VERTEX
  8
1-DEPRON
 10
829.198118
 20
540.68286
 42
0.0
  0
VERTEX
  8
1-DEPRON
 10
710.047831
 20
526.342752
 42
0.0
  0
SEQEND
  0
POLYLINE
  8
1-DEPRON
 66
     1
 10
0.0
 20
0.0
 30
0.0
 70
     1
  0
VERTEX
  8
1-DEPRON
 10
630.056902
 20
515.124124
 42
0.0
  0
VERTEX
  8
1-DEPRON
 10
630.056902
 20
520.140756
 42
0.0
  0
VERTEX
  8
1-DEPRON
 10
635.052367
 20
520.140756
 42
0.0
  0
VERTEX
  8
1-DEPRON
 10
635.052367
 20
515.124124
 42
0.0
  0
VERTEX
  8
1-DEPRON
 10
690.044807
 20
515.124124
 42
0.0
  0
VERTEX
  8
1-DEPRON
 10
690.044807
 20
512.139546
 42
0.0
  0
VERTEX
  8
1-DEPRON
 10
700.056902
 20
512.139546
 42
0.0
  0
VERTEX
  8
1-DEPRON
 10
700.056902
 20
515.126673
 42
0.0
  0
VERTEX
  8
1-DEPRON
 10
925.043253
 20
542.138292
 42
0.0
  0
VERTEX
  8
1-DEPRON
 10
700.056902
 20
569.142873
 42
0.0
  0
VERTEX
  8
1-DEPRON
 10
700.056902
 20
572.127451
 42
0.0
  0
VERTEX
  8
1-DEPRON
 10
690.044807
 20
572.127451
 42
0.0
  0
VERTEX
  8
1-DEPRON
 10
690.044807
 20
569.142873
 42
0.0
  0
VERTEX
  8
1-DEPRON
 10
635.052367
 20
569.142873
 42
0.0
  0
VERTEX
  8
1-DEPRON
 10
635.052367
 20
564.126241
 42
0.0
  0
VERTEX
  8
1-DEPRON
 10
630.056902
 20
564.126241
 42
0.0
  0
VERTEX
  8
1-DEPRON
 10
630.056902
 20
569.142873
 42
0.0
  0
VERTEX
  8
1-DEPRON
 10
568.058154
 20
569.142873
 42
0.0
  0
VERTEX
  8
1-DEPRON
 10
568.058154
 20
564.126241
 42
0.0
  0
VERTEX
  8
1-DEPRON
 10
563.041523
 20
564.126241
 42
0.0
  0
VERTEX
  8
1-DEPRON
 10
563.041523
 20
569.142873
 42
0.0
  0
VERTEX
  8
1-DEPRON
 10
550.044849
 20
569.142873
 42
0.0
  0
VERTEX
  8
1-DEPRON
 10
550.044849
 20
572.127451
 42
0.0
  0
VERTEX
  8
1-DEPRON
 10
540.053921
 20
572.127451
 42
0.0
  0
VERTEX
  8
1-DEPRON
 10
540.053921
 20
512.139546
 42
0.0
  0
VERTEX
  8
1-DEPRON
 10
550.044849
 20
512.139546
 42
0.0
  0
VERTEX
  8
1-DEPRON
 10
550.044849
 20
515.124124
 42
0.0
  0
VERTEX
  8
1-DEPRON
 10
563.041523
 20
515.124124
 42
0.0
  0
VERTEX
  8
1-DEPRON
 10
563.041523
 20
520.140756
 42
0.0
  0
VERTEX
  8
1-DEPRON
 10
568.058154
 20
520.140756
 42
0.0
  0
VERTEX
  8
1-DEPRON
 10
568.058154
 20
515.124124
 42
0.0
  0
SEQEND
  0
POLYLINE
  8
1-DEPRON
 66
     1
 10
0.0
 20
0.0
 30
0.0
 70
     1
  0
VERTEX
  8
1-DEPRON
 10
434.491792
 20
407.948678
 42
0.0
  0
VERTEX
  8
1-DEPRON
 10
437.497537
 20
407.948678
 42
0.0
  0
VERTEX
  8
1-DEPRON
 10
437.497537
 20
397.957749
 42
0.0
  0
VERTEX
  8
1-DEPRON
 10
434.491792
 20
397.957749
 42
0.0
  0
SEQEND
  0
POLYLINE
  8
1-DEPRON
 66
     1
 10
0.0
 20
0.0
 30
0.0
 70
     1
  0
VERTEX
  8
1-DEPRON
 10
26.514773
 20
397.957749
 42
0.0
  0
VERTEX
  8
1-DEPRON
 10
23.5090279999999
 20
397.957749
 42
0.0
  0
VERTEX
  8
1-DEPRON
 10
23.5090279999999
 20
407.948678
 42
0.0
  0
VERTEX
  8
1-DEPRON
 10
26.514773
 20
407.948678
 42
0.0
  0
SEQEND
  0
POLYLINE
  8
1-DEPRON
 66
     1
 10
0.0
 20
0.0
 30
0.0
 70
     1
  0
VERTEX
  8
1-DEPRON
 10
210.500259
 20
427.951702
 42
0.0
  0
VERTEX
  8
1-DEPRON
 10
250.506306
 20
427.951702
 42
0.0
  0
VERTEX
  8
1-DEPRON
 10
250.506306
 20
357.951702
 42
0.0
  0
VERTEX
  8
1-DEPRON
 10
210.500259
 20
357.951702
 42
0.0
  0
SEQEND
  0
POLYLINE
  8
1-DEPRON
 66
     1
 10
0.0
 20
0.0
 30
0.0
 70
     1
  0
VERTEX
  8
1-DEPRON
 10
455.489675
 20
347.939606
 42
0.0
  0
VERTEX
  8
1-DEPRON
 10
455.950697
 20
348.360622
 42
0.0
  0
VERTEX
  8
1-DEPRON
 10
456.406639
 20
348.785448
 42
0.0
  0
VERTEX
  8
1-DEPRON
 10
456.857501
 20
349.214084
 42
0.0
  0
VERTEX
  8
1-DEPRON
 10
457.303283
 20
349.646531
 42
0.0
  0
VERTEX
  8
1-DEPRON
 10
457.743984
 20
350.082787
 42
0.0
  0
VERTEX
  8
1-DEPRON
 10
458.179605
 20
350.522854
 42
0.0
  0
VERTEX
  8
1-DEPRON
 10
458.610147
 20
350.96673
 42
0.0
  0
VERTEX
  8
1-DEPRON
 10
459.035608
 20
351.414417
 42
0.0
  0
VERTEX
  8
1-DEPRON
 10
459.455989
 20
351.865914
 42
0.0
  0
VERTEX
  8
1-DEPRON
 10
459.87129
 20
352.321221
 42
0.0
  0
VERTEX
  8
1-DEPRON
 10
465.871805
 20
360.151442
 42
0.0
  0
VERTEX
  8
1-DEPRON
 10
470.417118
 20
368.614393
 42
0.0
  0
VERTEX
  8
1-DEPRON
 10
473.516374
 20
377.533794
 42
0.0
  0
VERTEX
  8
1-DEPRON
 10
475.178716
 20
386.733365
 42
0.0
  0
VERTEX
  8
1-DEPRON
 10
475.41329
 20
396.036824
 42
0.0
  0
VERTEX
  8
1-DEPRON
 10
474.229239
 20
405.267892
 42
0.0
  0
VERTEX
  8
1-DEPRON
 10
471.635708
 20
414.250286
 42
0.0
  0
VERTEX
  8
1-DEPRON
 10
467.641841
 20
422.807728
 42
0.0
  0
VERTEX
  8
1-DEPRON
 10
462.256782
 20
430.763936
 42
0.0
  0
VERTEX
  8
1-DEPRON
 10
455.489675
 20
437.94263
 42
0.0
  0
VERTEX
  8
1-DEPRON
 10
5.51689
 20
437.94263
 42
0.0
  0
VERTEX
  8
1-DEPRON
 10
-1.250217
 20
430.763936
 42
0.0
  0
VERTEX
  8
1-DEPRON
 10
-6.635276
 20
422.807728
 42
0.0
  0
VERTEX
  8
1-DEPRON
 10
-10.629143
 20
414.250286
 42
0.0
  0
VERTEX
  8
1-DEPRON
 10
-13.222674
 20
405.267892
 42
0.0
  0
VERTEX
  8
1-DEPRON
 10
-14.4067250000001
 20
396.036824
 42
0.0
  0
VERTEX
  8
1-DEPRON
 10
-14.172151
 20
386.733365
 42
0.0
  0
VERTEX
  8
1-DEPRON
 10
-12.509808
 20
377.533794
 42
0.0
  0
VERTEX
  8
1-DEPRON
 10
-9.4105530000001
 20
368.614393
 42
0.0
  0
VERTEX
  8
1-DEPRON
 10
-4.865239
 20
360.151442
 42
0.0
  0
VERTEX
  8
1-DEPRON
 10
1.135275
 20
352.321221
 42
0.0
  0
VERTEX
  8
1-DEPRON
 10
1.550576
 20
351.865914
 42
0.0
  0
VERTEX
  8
1-DEPRON
 10
1.970957
 20
351.414417
 42
0.0
  0
VERTEX
  8
1-DEPRON
 10
2.396418
 20
350.96673
 42
0.0
  0
VERTEX
  8
1-DEPRON
 10
2.82696
 20
350.522854
 42
0.0
  0
VERTEX
  8
1-DEPRON
 10
3.262581
 20
350.082787
 42
0.0
  0
VERTEX
  8
1-DEPRON
 10
3.7032830000001
 20
349.646531
 42
0.0
  0
VERTEX
  8
1-DEPRON
 10
4.149064
 20
349.214084
 42
0.0
  0
VERTEX
  8
1-DEPRON
 10
4.599926
 20
348.785448
 42
0.0
  0
VERTEX
  8
1-DEPRON
 10
5.055868
 20
348.360622
 42
0.0
  0
VERTEX
  8
1-DEPRON
 10
5.51689
 20
347.939606
 42
0.0
  0
SEQEND
  0
POLYLINE
  8
1-DEPRON
 66
     1
 10
0.0
 20
0.0
 30
0.0
 70
     1
  0
VERTEX
  8
1-DEPRON
 10
453.304292
 20
503.487374
 42
0.0
  0
VERTEX
  8
1-DEPRON
 10
453.304292
 20
513.478302
 42
0.0
  0
VERTEX
  8
1-DEPRON
 10
456.310037
 20
513.478302
 42
0.0
  0
VERTEX
  8
1-DEPRON
 10
456.310037
 20
503.487374
 42
0.0
  0
SEQEND
  0
POLYLINE
  8
1-DEPRON
 66
     1
 10
0.0
 20
0.0
 30
0.0
 70
     1
  0
VERTEX
  8
1-DEPRON
 10
272.303385
 20
503.487374
 42
0.0
  0
VERTEX
  8
1-DEPRON
 10
272.303385
 20
508.482838
 42
0.0
  0
VERTEX
  8
1-DEPRON
 10
275.30913
 20
508.482838
 42
0.0
  0
VERTEX
  8
1-DEPRON
 10
275.30913
 20
503.487374
 42
0.0
  0
SEQEND
  0
POLYLINE
  8
1-DEPRON
 66
     1
 10
0.0
 20
0.0
 30
0.0
 70
     1
  0
VERTEX
  8
1-DEPRON
 10
45.327273
 20
503.487374
 42
0.0
  0
VERTEX
  8
1-DEPRON
 10
42.3215279999999
 20
503.487374
 42
0.0
  0
VERTEX
  8
1-DEPRON
 10
42.3215279999999
 20
513.478302
 42
0.0
  0
VERTEX
  8
1-DEPRON
 10
45.327273
 20
513.478302
 42
0.0
  0
SEQEND
  0
POLYLINE
  8
1-DEPRON
 66
     1
 10
0.0
 20
0.0
 30
0.0
 70
     1
  0
VERTEX
  8
1-DEPRON
 10
223.322435
 20
503.487374
 42
0.0
  0
VERTEX
  8
1-DEPRON
 10
223.322435
 20
508.482838
 42
0.0
  0
VERTEX
  8
1-DEPRON
 10
226.32818
 20
508.482838
 42
0.0
  0
VERTEX
  8
1-DEPRON
 10
226.32818
 20
503.487374
 42
0.0
  0
SEQEND
  0
POLYLINE
  8
1-DEPRON
 66
     1
 10
0.0
 20
0.0
 30
0.0
 70
     1
  0
VERTEX
  8
1-DEPRON
 10
199.318806
 20
453.46923
 42
0.0
  0
VERTEX
  8
1-DEPRON
 10
199.321664
 20
454.12652
 42
0.0
  0
VERTEX
  8
1-DEPRON
 10
199.340718
 20
455.002165
 42
0.0
  0
VERTEX
  8
1-DEPRON
 10
199.375013
 20
455.876032
 42
0.0
  0
VERTEX
  8
1-DEPRON
 10
199.424552
 20
456.747103
 42
0.0
  0
VERTEX
  8
1-DEPRON
 10
199.502349
 20
457.788616
 42
0.0
  0
VERTEX
  8
1-DEPRON
 10
200.869962
 20
465.854065
 42
0.0
  0
VERTEX
  8
1-DEPRON
 10
203.42965
 20
473.354564
 42
0.0
  0
VERTEX
  8
1-DEPRON
 10
207.076741
 20
480.237827
 42
0.0
  0
VERTEX
  8
1-DEPRON
 10
211.699599
 20
486.410506
 42
0.0
  0
VERTEX
  8
1-DEPRON
 10
217.186587
 20
491.779254
 42
0.0
  0
VERTEX
  8
1-DEPRON
 10
223.42607
 20
496.250724
 42
0.0
  0
VERTEX
  8
1-DEPRON
 10
230.306412
 20
499.731568
 42
0.0
  0
VERTEX
  8
1-DEPRON
 10
237.715976
 20
502.128438
 42
0.0
  0
VERTEX
  8
1-DEPRON
 10
245.543128
 20
503.347987
 42
0.0
  0
VERTEX
  8
1-DEPRON
 10
249.315783
 20
503.324275
 42
0.0
  0
VERTEX
  8
1-DEPRON
 10
253.088438
 20
503.347987
 42
0.0
  0
VERTEX
  8
1-DEPRON
 10
260.915589
 20
502.128438
 42
0.0
  0
VERTEX
  8
1-DEPRON
 10
268.325154
 20
499.731568
 42
0.0
  0
VERTEX
  8
1-DEPRON
 10
275.205495
 20
496.250724
 42
0.0
  0
VERTEX
  8
1-DEPRON
 10
281.444978
 20
491.779254
 42
0.0
  0
VERTEX
  8
1-DEPRON
 10
286.931966
 20
486.410506
 42
0.0
  0
VERTEX
  8
1-DEPRON
 10
291.554824
 20
480.237827
 42
0.0
  0
VERTEX
  8
1-DEPRON
 10
295.201915
 20
473.354564
 42
0.0
  0
VERTEX
  8
1-DEPRON
 10
297.761604
 20
465.854065
 42
0.0
  0
VERTEX
  8
1-DEPRON
 10
299.129216
 20
457.788616
 42
0.0
  0
VERTEX
  8
1-DEPRON
 10
299.207013
 20
456.747103
 42
0.0
  0
VERTEX
  8
1-DEPRON
 10
299.256552
 20
455.876032
 42
0.0
  0
VERTEX
  8
1-DEPRON
 10
299.290847
 20
455.002165
 42
0.0
  0
VERTEX
  8
1-DEPRON
 10
299.309901
 20
454.12652
 42
0.0
  0
VERTEX
  8
1-DEPRON
 10
299.312759
 20
453.46923
 42
0.0
  0
VERTEX
  8
1-DEPRON
 10
499.300621
 20
453.46923
 42
0.0
  0
VERTEX
  8
1-DEPRON
 10
499.761643
 20
453.890246
 42
0.0
  0
VERTEX
  8
1-DEPRON
 10
500.217585
 20
454.315072
 42
0.0
  0
VERTEX
  8
1-DEPRON
 10
500.668447
 20
454.743709
 42
0.0
  0
VERTEX
  8
1-DEPRON
 10
501.114228
 20
455.176155
 42
0.0
  0
VERTEX
  8
1-DEPRON
 10
501.55493
 20
455.612411
 42
0.0
  0
VERTEX
  8
1-DEPRON
 10
501.990551
 20
456.052478
 42
0.0
  0
VERTEX
  8
1-DEPRON
 10
502.421092
 20
456.496354
 42
0.0
  0
VERTEX
  8
1-DEPRON
 10
502.846554
 20
456.944041
 42
0.0
  0
VERTEX
  8
1-DEPRON
 10
503.266935
 20
457.395538
 42
0.0
  0
VERTEX
  8
1-DEPRON
 10
503.682236
 20
457.850845
 42
0.0
  0
VERTEX
  8
1-DEPRON
 10
509.682763
 20
465.681066
 42
0.0
  0
VERTEX
  8
1-DEPRON
 10
514.228085
 20
474.144017
 42
0.0
  0
VERTEX
  8
1-DEPRON
 10
517.327348
 20
483.063418
 42
0.0
  0
VERTEX
  8
1-DEPRON
 10
518.989694
 20
492.262989
 42
0.0
  0
VERTEX
  8
1-DEPRON
 10
519.224269
 20
501.566448
 42
0.0
  0
VERTEX
  8
1-DEPRON
 10
518.040217
 20
510.797516
 42
0.0
  0
VERTEX
  8
1-DEPRON
 10
515.446681
 20
519.779911
 42
0.0
  0
VERTEX
  8
1-DEPRON
 10
511.452807
 20
528.337352
 42
0.0
  0
VERTEX
  8
1-DEPRON
 10
506.067739
 20
536.29356
 42
0.0
  0
VERTEX
  8
1-DEPRON
 10
499.300621
 20
543.472254
 42
0.0
  0
VERTEX
  8
1-DEPRON
 10
-0.669056
 20
543.472254
 42
0.0
  0
VERTEX
  8
1-DEPRON
 10
-7.4361740000001
 20
536.29356
 42
0.0
  0
VERTEX
  8
1-DEPRON
 10
-12.821242
 20
528.337352
 42
0.0
  0
VERTEX
  8
1-DEPRON
 10
-16.815116
 20
519.779911
 42
0.0
  0
VERTEX
  8
1-DEPRON
 10
-19.408652
 20
510.797516
 42
0.0
  0
VERTEX
  8
1-DEPRON
 10
-20.592704
 20
501.566448
 42
0.0
  0
VERTEX
  8
1-DEPRON
 10
-20.358129
 20
492.262989
 42
0.0
  0
VERTEX
  8
1-DEPRON
 10
-18.695783
 20
483.063418
 42
0.0
  0
VERTEX
  8
1-DEPRON
 10
-15.5965200000001
 20
474.144017
 42
0.0
  0
VERTEX
  8
1-DEPRON
 10
-11.051198
 20
465.681066
 42
0.0
  0
VERTEX
  8
1-DEPRON
 10
-5.05067
 20
457.850845
 42
0.0
  0
VERTEX
  8
1-DEPRON
 10
-4.63537
 20
457.395538
 42
0.0
  0
VERTEX
  8
1-DEPRON
 10
-4.214989
 20
456.944041
 42
0.0
  0
VERTEX
  8
1-DEPRON
 10
-3.789527
 20
456.496354
 42
0.0
  0
VERTEX
  8
1-DEPRON
 10
-3.358986
 20
456.052478
 42
0.0
  0
VERTEX
  8
1-DEPRON
 10
-2.923365
 20
455.612411
 42
0.0
  0
VERTEX
  8
1-DEPRON
 10
-2.482663
 20
455.176155
 42
0.0
  0
VERTEX
  8
1-DEPRON
 10
-2.036882
 20
454.743709
 42
0.0
  0
VERTEX
  8
1-DEPRON
 10
-1.58602
 20
454.315072
 42
0.0
  0
VERTEX
  8
1-DEPRON
 10
-1.130078
 20
453.890246
 42
0.0
  0
VERTEX
  8
1-DEPRON
 10
-0.669056
 20
453.46923
 42
0.0
  0
SEQEND
  0
POLYLINE
  8
1-DEPRON
 66
     1
 10
0.0
 20
0.0
 30
0.0
 70
     1
  0
VERTEX
  8
1-DEPRON
 10
480.648562
 20
142.013493
 42
0.0
  0
VERTEX
  8
1-DEPRON
 10
480.648562
 20
199.01682
 42
0.0
  0
VERTEX
  8
1-DEPRON
 10
477.642817
 20
199.01682
 42
0.0
  0
VERTEX
  8
1-DEPRON
 10
477.642817
 20
209.007748
 42
0.0
  0
VERTEX
  8
1-DEPRON
 10
470.636466
 20
209.007748
 42
0.0
  0
VERTEX
  8
1-DEPRON
 10
470.636466
 20
214.024379
 42
0.0
  0
VERTEX
  8
1-DEPRON
 10
477.642817
 20
214.024379
 42
0.0
  0
VERTEX
  8
1-DEPRON
 10
477.642817
 20
244.018332
 42
0.0
  0
VERTEX
  8
1-DEPRON
 10
480.648562
 20
244.018332
 42
0.0
  0
VERTEX
  8
1-DEPRON
 10
480.648562
 20
262.010469
 42
0.0
  0
VERTEX
  8
1-DEPRON
 10
470.636466
 20
262.010469
 42
0.0
  0
VERTEX
  8
1-DEPRON
 10
470.636466
 20
267.005934
 42
0.0
  0
VERTEX
  8
1-DEPRON
 10
480.648562
 20
267.005934
 42
0.0
  0
VERTEX
  8
1-DEPRON
 10
480.648562
 20
297.021053
 42
0.0
  0
VERTEX
  8
1-DEPRON
 10
418.649771
 20
297.021053
 42
0.0
  0
VERTEX
  8
1-DEPRON
 10
418.649771
 20
267.005934
 42
0.0
  0
VERTEX
  8
1-DEPRON
 10
428.6407
 20
267.005934
 42
0.0
  0
VERTEX
  8
1-DEPRON
 10
428.6407
 20
262.010469
 42
0.0
  0
VERTEX
  8
1-DEPRON
 10
418.649771
 20
262.010469
 42
0.0
  0
VERTEX
  8
1-DEPRON
 10
418.649771
 20
244.018332
 42
0.0
  0
VERTEX
  8
1-DEPRON
 10
421.63435
 20
244.018332
 42
0.0
  0
VERTEX
  8
1-DEPRON
 10
421.63435
 20
214.024379
 42
0.0
  0
VERTEX
  8
1-DEPRON
 10
428.6407
 20
214.024379
 42
0.0
  0
VERTEX
  8
1-DEPRON
 10
428.6407
 20
209.007748
 42
0.0
  0
VERTEX
  8
1-DEPRON
 10
421.63435
 20
209.007748
 42
0.0
  0
VERTEX
  8
1-DEPRON
 10
421.63435
 20
199.01682
 42
0.0
  0
VERTEX
  8
1-DEPRON
 10
418.649771
 20
199.01682
 42
0.0
  0
VERTEX
  8
1-DEPRON
 10
418.649771
 20
142.013493
 42
0.0
  0
SEQEND
  0
POLYLINE
  8
1-DEPRON
 66
     1
 10
0.0
 20
0.0
 30
0.0
 70
     1
  0
VERTEX
  8
1-DEPRON
 10
330.040418
 20
292.512435
 42
0.0
  0
VERTEX
  8
1-DEPRON
 10
330.040418
 20
295.51818
 42
0.0
  0
VERTEX
  8
1-DEPRON
 10
269.962648
 20
295.51818
 42
0.0
  0
VERTEX
  8
1-DEPRON
 10
269.962648
 20
292.512435
 42
0.0
  0
SEQEND
  0
POLYLINE
  8
1-DEPRON
 66
     1
 10
0.0
 20
0.0
 30
0.0
 70
     1
  0
VERTEX
  8
1-DEPRON
 10
269.962648
 20
245.013191
 42
0.0
  0
VERTEX
  8
1-DEPRON
 10
269.962648
 20
235.022263
 42
0.0
  0
VERTEX
  8
1-DEPRON
 10
330.040418
 20
235.022263
 42
0.0
  0
VERTEX
  8
1-DEPRON
 10
330.040418
 20
245.013191
 42
0.0
  0
SEQEND
  0
POLYLINE
  8
1-DEPRON
 66
     1
 10
0.0
 20
0.0
 30
0.0
 70
     1
  0
VERTEX
  8
1-DEPRON
 10
327.034673
 20
245.013191
 42
0.0
  0
VERTEX
  8
1-DEPRON
 10
327.034673
 20
292.512435
 42
0.0
  0
VERTEX
  8
1-DEPRON
 10
330.040418
 20
292.512435
 42
0.0
  0
VERTEX
  8
1-DEPRON
 10
330.040418
 20
245.013191
 42
0.0
  0
SEQEND
  0
POLYLINE
  8
1-DEPRON
 66
     1
 10
0.0
 20
0.0
 30
0.0
 70
     1
  0
VERTEX
  8
1-DEPRON
 10
272.947226
 20
292.512435
 42
0.0
  0
VERTEX
  8
1-DEPRON
 10
272.947226
 20
245.013191
 42
0.0
  0
VERTEX
  8
1-DEPRON
 10
269.962648
 20
245.013191
 42
0.0
  0
VERTEX
  8
1-DEPRON
 10
269.962648
 20
292.512435
 42
0.0
  0
SEQEND
  0
POLYLINE
  8
1-DEPRON
 66
     1
 10
0.0
 20
0.0
 30
0.0
 70
     1
  0
VERTEX
  8
1-DEPRON
 10
220.876249
 20
171.15972
 42
0.0
  0
VERTEX
  8
1-DEPRON
 10
220.876249
 20
123.17363
 42
0.0
  0
VERTEX
  8
1-DEPRON
 10
186.881692
 20
123.17363
 42
0.0
  0
VERTEX
  8
1-DEPRON
 10
186.881692
 20
171.15972
 42
0.0
  0
SEQEND
  0
POLYLINE
  8
1-DEPRON
 66
     1
 10
0.0
 20
0.0
 30
0.0
 70
     1
  0
VERTEX
  8
1-DEPRON
 10
230.867177
 20
181.171816
 42
0.0
  0
VERTEX
  8
1-DEPRON
 10
230.867177
 20
113.161535
 42
0.0
  0
VERTEX
  8
1-DEPRON
 10
176.869596
 20
113.161535
 42
0.0
  0
VERTEX
  8
1-DEPRON
 10
176.869596
 20
181.171816
 42
0.0
  0
SEQEND
  0
POLYLINE
  8
1-DEPRON
 66
     1
 10
0.0
 20
0.0
 30
0.0
 70
     1
  0
VERTEX
  8
1-DEPRON
 10
65.909642
 20
247.616759
 42
0.0
  0
VERTEX
  8
1-DEPRON
 10
65.909642
 20
244.611014
 42
0.0
  0
VERTEX
  8
1-DEPRON
 10
125.985503
 20
244.611014
 42
0.0
  0
VERTEX
  8
1-DEPRON
 10
125.985503
 20
247.616759
 42
0.0
  0
SEQEND
  0
POLYLINE
  8
1-DEPRON
 66
     1
 10
0.0
 20
0.0
 30
0.0
 70
     1
  0
VERTEX
  8
1-DEPRON
 10
125.985503
 20
244.611014
 42
0.0
  0
VERTEX
  8
1-DEPRON
 10
125.985503
 20
209.100633
 42
0.0
  0
VERTEX
  8
1-DEPRON
 10
122.979758
 20
209.100633
 42
0.0
  0
VERTEX
  8
1-DEPRON
 10
122.979758
 20
244.611014
 42
0.0
  0
SEQEND
  0
POLYLINE
  8
1-DEPRON
 66
     1
 10
0.0
 20
0.0
 30
0.0
 70
     1
  0
VERTEX
  8
1-DEPRON
 10
68.915387
 20
244.611014
 42
0.0
  0
VERTEX
  8
1-DEPRON
 10
68.915387
 20
209.100633
 42
0.0
  0
VERTEX
  8
1-DEPRON
 10
65.909642
 20
209.100633
 42
0.0
  0
VERTEX
  8
1-DEPRON
 10
65.909642
 20
244.611014
 42
0.0
  0
SEQEND
  0
POLYLINE
  8
1-DEPRON
 66
     1
 10
0.0
 20
0.0
 30
0.0
 70
     1
  0
VERTEX
  8
1-DEPRON
 10
65.909642
 20
209.100633
 42
0.0
  0
VERTEX
  8
1-DEPRON
 10
65.909642
 20
199.109704
 42
0.0
  0
VERTEX
  8
1-DEPRON
 10
125.985503
 20
199.109704
 42
0.0
  0
VERTEX
  8
1-DEPRON
 10
125.985503
 20
209.100633
 42
0.0
  0
SEQEND
  0
LINE
  8
1-DEPRON
 10
263.993824
 20
235.022263
 30
0.0
 11
336.009242
 21
235.022263
 31
0.0
  0
LINE
  8
1-DEPRON
 10
53.521166
 20
199.109704
 30
0.0
 11
138.373979
 21
199.109704
 31
0.0
  0
ARC
  8
1-DEPRON
 10
300.001533
 20
122.572524
 30
0.0
 40
67.785713
 50
63.731956
 51
116.268043
  0
LINE
  8
1-DEPRON
 10
330.001533
 20
183.358238
 30
0.0
 11
270.001533
 21
183.358238
 31
0.0
  0
POLYLINE
  8
1-DEPRON
 66
     1
 10
0.0
 20
0.0
 30
0.0
 70
     1
  0
VERTEX
  8
1-DEPRON
 10
269.962648
 20
235.022263
 42
0.0
  0
VERTEX
  8
1-DEPRON
 10
269.962648
 20
235.022263
 42
0.0
  0
VERTEX
  8
1-DEPRON
 10
269.962648
 20
295.51818
 42
0.0
  0
VERTEX
  8
1-DEPRON
 10
269.962648
 20
295.51818
 42
0.388762
  0
VERTEX
  8
1-DEPRON
 10
263.993824
 20
235.022263
 42
0.0
  0
SEQEND
  0
POLYLINE
  8
1-DEPRON
 66
     1
 10
0.0
 20
0.0
 30
0.0
 70
     1
  0
VERTEX
  8
1-DEPRON
 10
330.040418
 20
295.51818
 42
0.382631
  0
VERTEX
  8
1-DEPRON
 10
269.962648
 20
295.51818
 42
0.0
  0
SEQEND
  0
POLYLINE
  8
1-DEPRON
 66
     1
 10
0.0
 20
0.0
 30
0.0
 70
     1
  0
VERTEX
  8
1-DEPRON
 10
336.009242
 20
235.022263
 42
0.388762
  0
VERTEX
  8
1-DEPRON
 10
330.040418
 20
295.51818
 42
0.0
  0
VERTEX
  8
1-DEPRON
 10
330.040418
 20
295.51818
 42
0.0
  0
VERTEX
  8
1-DEPRON
 10
330.040418
 20
235.022263
 42
0.0
  0
VERTEX
  8
1-DEPRON
 10
330.040418
 20
235.022263
 42
0.0
  0
SEQEND
  0
POLYLINE
  8
1-DEPRON
 66
     1
 10
0.0
 20
0.0
 30
0.0
 70
     1
  0
VERTEX
  8
1-DEPRON
 10
65.909642
 20
199.109704
 42
0.0
  0
VERTEX
  8
1-DEPRON
 10
65.909642
 20
199.109704
 42
0.0
  0
VERTEX
  8
1-DEPRON
 10
65.909642
 20
247.616759
 42
0.0
  0
VERTEX
  8
1-DEPRON
 10
65.909642
 20
247.616759
 42
0.303805
  0
VERTEX
  8
1-DEPRON
 10
53.521166
 20
199.109704
 42
0.0
  0
SEQEND
  0
POLYLINE
  8
1-DEPRON
 66
     1
 10
0.0
 20
0.0
 30
0.0
 70
     1
  0
VERTEX
  8
1-DEPRON
 10
125.985503
 20
247.616759
 42
0.382614
  0
VERTEX
  8
1-DEPRON
 10
65.909642
 20
247.616759
 42
0.0
  0
SEQEND
  0
POLYLINE
  8
1-DEPRON
 66
     1
 10
0.0
 20
0.0
 30
0.0
 70
     1
  0
VERTEX
  8
1-DEPRON
 10
138.373979
 20
199.109704
 42
0.303805
  0
VERTEX
  8
1-DEPRON
 10
125.985503
 20
247.616759
 42
0.0
  0
VERTEX
  8
1-DEPRON
 10
125.985503
 20
247.616759
 42
0.0
  0
VERTEX
  8
1-DEPRON
 10
125.985503
 20
199.109704
 42
0.0
  0
VERTEX
  8
1-DEPRON
 10
125.985503
 20
199.109704
 42
0.0
  0
SEQEND
  0
POLYLINE
  8
1-DEPRON
 66
     1
 10
0.0
 20
0.0
 30
0.0
 70
     1
  0
VERTEX
  8
1-DEPRON
 10
765.078278
 20
122.979279
 42
0.0
  0
VERTEX
  8
1-DEPRON
 10
765.078278
 20
112.988351
 42
0.0
  0
VERTEX
  8
1-DEPRON
 10
955.096421
 20
112.988351
 42
0.0
  0
VERTEX
  8
1-DEPRON
 10
955.096421
 20
122.979279
 42
0.0
  0
VERTEX
  8
1-DEPRON
 10
1119.078882
 20
122.979279
 42
0.0
  0
VERTEX
  8
1-DEPRON
 10
1125.206083
 20
131.445702
 42
0.0
  0
VERTEX
  8
1-DEPRON
 10
1129.863477
 20
140.526567
 42
0.0
  0
VERTEX
  8
1-DEPRON
 10
1133.058302
 20
150.052705
 42
0.0
  0
VERTEX
  8
1-DEPRON
 10
1134.7978
 20
159.854949
 42
0.0
  0
VERTEX
  8
1-DEPRON
 10
1135.089207
 20
169.76413
 42
0.0
  0
VERTEX
  8
1-DEPRON
 10
1133.939765
 20
179.611079
 42
0.0
  0
VERTEX
  8
1-DEPRON
 10
1131.356712
 20
189.226627
 42
0.0
  0
VERTEX
  8
1-DEPRON
 10
1127.347287
 20
198.441608
 42
0.0
  0
VERTEX
  8
1-DEPRON
 10
1121.918729
 20
207.086851
 42
0.0
  0
VERTEX
  8
1-DEPRON
 10
1115.078278
 20
214.993189
 42
0.0
  0
VERTEX
  8
1-DEPRON
 10
605.096421
 20
214.993189
 42
0.0
  0
VERTEX
  8
1-DEPRON
 10
598.25597
 20
207.086851
 42
0.0
  0
VERTEX
  8
1-DEPRON
 10
592.827412
 20
198.441608
 42
0.0
  0
VERTEX
  8
1-DEPRON
 10
588.817987
 20
189.226627
 42
0.0
  0
VERTEX
  8
1-DEPRON
 10
586.234933
 20
179.611079
 42
0.0
  0
VERTEX
  8
1-DEPRON
 10
585.085491
 20
169.76413
 42
0.0
  0
VERTEX
  8
1-DEPRON
 10
585.376899
 20
159.854949
 42
0.0
  0
VERTEX
  8
1-DEPRON
 10
587.116396
 20
150.052705
 42
0.0
  0
VERTEX
  8
1-DEPRON
 10
590.311222
 20
140.526567
 42
0.0
  0
VERTEX
  8
1-DEPRON
 10
594.968616
 20
131.445702
 42
0.0
  0
VERTEX
  8
1-DEPRON
 10
601.095816
 20
122.979279
 42
0.0
  0
SEQEND
  0
POLYLINE
  8
1-DEPRON
 66
     1
 10
0.0
 20
0.0
 30
0.0
 70
     1
  0
VERTEX
  8
1-DEPRON
 10
859.081906
 20
180.003773
 42
0.0
  0
VERTEX
  8
1-DEPRON
 10
862.087652
 20
180.003773
 42
0.0
  0
VERTEX
  8
1-DEPRON
 10
862.087652
 20
172.002563
 42
0.0
  0
VERTEX
  8
1-DEPRON
 10
859.081906
 20
172.002563
 42
0.0
  0
SEQEND
  0
POLYLINE
  8
1-DEPRON
 66
     1
 10
0.0
 20
0.0
 30
0.0
 70
     1
  0
VERTEX
  8
1-DEPRON
 10
681.086744
 20
174.987141
 42
0.0
  0
VERTEX
  8
1-DEPRON
 10
678.080999
 20
174.987141
 42
0.0
  0
VERTEX
  8
1-DEPRON
 10
678.080999
 20
184.97807
 42
0.0
  0
VERTEX
  8
1-DEPRON
 10
681.086744
 20
184.97807
 42
0.0
  0
SEQEND
  0
POLYLINE
  8
1-DEPRON
 66
     1
 10
0.0
 20
0.0
 30
0.0
 70
     1
  0
VERTEX
  8
1-DEPRON
 10
1039.087954
 20
174.987141
 42
0.0
  0
VERTEX
  8
1-DEPRON
 10
1042.093699
 20
174.987141
 42
0.0
  0
VERTEX
  8
1-DEPRON
 10
1042.093699
 20
184.97807
 42
0.0
  0
VERTEX
  8
1-DEPRON
 10
1039.087954
 20
184.97807
 42
0.0
  0
SEQEND
  0
POLYLINE
  8
1-DEPRON
 66
     1
 10
0.0
 20
0.0
 30
0.0
 70
     1
  0
VERTEX
  8
1-DEPRON
 10
719.401361
 20
77.845347
 42
0.0
  0
VERTEX
  8
1-DEPRON
 10
722.150475
 20
80.729932
 42
0.0
  0
VERTEX
  8
1-DEPRON
 10
725.125147
 20
83.33206
 42
0.0
  0
VERTEX
  8
1-DEPRON
 10
728.303278
 20
85.642336
 42
0.0
  0
VERTEX
  8
1-DEPRON
 10
731.66277
 20
87.651359
 42
0.0
  0
VERTEX
  8
1-DEPRON
 10
735.181524
 20
89.349732
 42
0.0
  0
VERTEX
  8
1-DEPRON
 10
738.837442
 20
90.728057
 42
0.0
  0
VERTEX
  8
1-DEPRON
 10
742.608425
 20
91.776935
 42
0.0
  0
VERTEX
  8
1-DEPRON
 10
746.472374
 20
92.486968
 42
0.0
  0
VERTEX
  8
1-DEPRON
 10
750.407191
 20
92.848758
 42
0.0
  0
VERTEX
  8
1-DEPRON
 10
754.390778
 20
92.852907
 42
0.0
  0
VERTEX
  8
1-DEPRON
 10
754.390778
 20
102.843835
 42
0.0
  0
VERTEX
  8
1-DEPRON
 10
590.408316
 20
102.843835
 42
0.0
  0
VERTEX
  8
1-DEPRON
 10
584.281116
 20
111.310258
 42
0.0
  0
VERTEX
  8
1-DEPRON
 10
583.488371
 20
112.855931
 42
0.0
  0
VERTEX
  8
1-DEPRON
 10
564.393844
 20
112.855931
 42
0.0
  0
VERTEX
  8
1-DEPRON
 10
562.593572
 20
109.562142
 42
0.0
  0
VERTEX
  8
1-DEPRON
 10
561.19336
 20
106.130173
 42
0.0
  0
VERTEX
  8
1-DEPRON
 10
560.193209
 20
102.59457
 42
0.0
  0
VERTEX
  8
1-DEPRON
 10
559.593118
 20
98.989877
 42
0.0
  0
VERTEX
  8
1-DEPRON
 10
559.393088
 20
95.350639
 42
0.0
  0
VERTEX
  8
1-DEPRON
 10
559.593118
 20
91.711401
 42
0.0
  0
VERTEX
  8
1-DEPRON
 10
560.193209
 20
88.106708
 42
0.0
  0
VERTEX
  8
1-DEPRON
 10
561.19336
 20
84.571105
 42
0.0
  0
VERTEX
  8
1-DEPRON
 10
562.593572
 20
81.139136
 42
0.0
  0
VERTEX
  8
1-DEPRON
 10
564.393844
 20
77.845347
 42
0.0
  0
SEQEND
  0
POLYLINE
  8
1-DEPRON
 66
     1
 10
0.0
 20
0.0
 30
0.0
 70
     1
  0
VERTEX
  8
1-DEPRON
 10
1006.085837
 20
81.407847
 42
0.0
  0
VERTEX
  8
1-DEPRON
 10
1003.336723
 20
84.292432
 42
0.0
  0
VERTEX
  8
1-DEPRON
 10
1000.362051
 20
86.89456
 42
0.0
  0
VERTEX
  8
1-DEPRON
 10
997.18392
 20
89.204836
 42
0.0
  0
VERTEX
  8
1-DEPRON
 10
993.824428
 20
91.213859
 42
0.0
  0
VERTEX
  8
1-DEPRON
 10
990.305674
 20
92.912232
 42
0.0
  0
VERTEX
  8
1-DEPRON
 10
986.649756
 20
94.290557
 42
0.0
  0
VERTEX
  8
1-DEPRON
 10
982.878774
 20
95.339435
 42
0.0
  0
VERTEX
  8
1-DEPRON
 10
979.014824
 20
96.049468
 42
0.0
  0
VERTEX
  8
1-DEPRON
 10
975.080007
 20
96.411258
 42
0.0
  0
VERTEX
  8
1-DEPRON
 10
971.096421
 20
96.415407
 42
0.0
  0
VERTEX
  8
1-DEPRON
 10
971.096421
 20
106.406335
 42
0.0
  0
VERTEX
  8
1-DEPRON
 10
1135.078882
 20
106.406335
 42
0.0
  0
VERTEX
  8
1-DEPRON
 10
1141.206083
 20
114.872758
 42
0.0
  0
VERTEX
  8
1-DEPRON
 10
1141.998828
 20
116.418431
 42
0.0
  0
VERTEX
  8
1-DEPRON
 10
1161.093355
 20
116.418431
 42
0.0
  0
VERTEX
  8
1-DEPRON
 10
1162.893627
 20
113.124642
 42
0.0
  0
VERTEX
  8
1-DEPRON
 10
1164.293839
 20
109.692673
 42
0.0
  0
VERTEX
  8
1-DEPRON
 10
1165.29399
 20
106.15707
 42
0.0
  0
VERTEX
  8
1-DEPRON
 10
1165.89408
 20
102.552377
 42
0.0
  0
VERTEX
  8
1-DEPRON
 10
1166.094111
 20
98.913139
 42
0.0
  0
VERTEX
  8
1-DEPRON
 10
1165.89408
 20
95.273901
 42
0.0
  0
VERTEX
  8
1-DEPRON
 10
1165.29399
 20
91.669208
 42
0.0
  0
VERTEX
  8
1-DEPRON
 10
1164.293839
 20
88.133605
 42
0.0
  0
VERTEX
  8
1-DEPRON
 10
1162.893627
 20
84.701636
 42
0.0
  0
VERTEX
  8
1-DEPRON
 10
1161.093355
 20
81.407847
 42
0.0
  0
SEQEND
  0
POLYLINE
  8
1-DEPRON
 66
     1
 10
0.0
 20
0.0
 30
0.0
 70
     1
  0
VERTEX
  8
1-DEPRON
 10
822.977227
 20
98.797827
 42
0.0
  0
VERTEX
  8
1-DEPRON
 10
822.977227
 20
38.788755
 42
0.0
  0
VERTEX
  8
1-DEPRON
 10
922.971179
 20
38.788755
 42
0.0
  0
VERTEX
  8
1-DEPRON
 10
922.971179
 20
98.797827
 42
0.0
  0
SEQEND
  0
ENDSEC
  0
EOF
